Download Bireli Lagrene & Sylvain Luc - Musica Tablature (Made in France) PDF

TitleBireli Lagrene & Sylvain Luc - Musica Tablature (Made in France)
File Size40.1 KB
Total Pages18
Document Text Contents
Page 1

#----------------------------------PLEASE NOTE---------------------------------#
#This file is the author's own work and represents their interpretation of the #
#song. You may only use this file for private study, scholarship, or research. #
#------------------------------------------------------------------------------#

MADE IN FRANCE
As recorded by Bireli Lagrene & Sylvain Luc

(From the 2001 Album DUET)


Gtr I (E A D G B E) - 'Untitled'
Gtr II (E A D G B E) - 'Untitled'

Q=155
4/4
Gtr I
Q e E E Q S S S E. E e E Q E
||--------12----12-12--------|--------------12-----x-----||
||o--12---12----12-12--------|------12------12--x-------o||
||---12---12----12-12-----12-|--12--12------12-----------||
||---12---12--------------12-|--12--12-------------------||
||o--------------------------|--------------------------o||
||---12-------------------12-|--12--12-------------------||
|
| Gtr II
| Q Q. Q. Q Q H
||---------------------------|-----------------<7>-------||
||o-<12>--<7>-------7--------|-<12>-----<7>----<7>------o||
||--<12>--<7>-------6--------|-<12>-----<7>--------------||
||---------------------------|---------------------------||
||o--------------------------|--------------------------o||
||---------------------------|---------------------------||


Q e Q E Q Q q E E Q
|-14---12-----14-12--|-14----12----------x---|
|-12---12-----12-12--|-12----12-------x------|
|-12---12-----12-12--|-12----12--------------|
|-12-------------12--|-12--------------------|
|--------------------|-----------------------|
|--------------------|-----------------------|
|
| E Q E H E Q. E Q.
|--------------------|---------------<7>-----|
|--7-7----7-5--------|----7----------<7>-----|
|--6-6----6-4--------|----6-------7----------|
|--------------------|-----------<7>---------|
|--------------------|-----------------------|
|--------------------|-----------------------|


|--3--| |--3--| |--3--| |--3--| |--3--|
Q E E E E +E E Q H S S S S S E E E E E E E E E E E E
|-14---12-----14-12--(12)----|-12------------------15-11-||-14-12-11-12----------------------12-|
|-12---12-----12-12--(12)----|-12---------12h13p12-------||-------------12----------------------|
|-12---12-----12-12--(12)-12-|-12------------------------||----------------12-11----11-12-13----|
|-12---12-----12-12--(12)-12-|-12------------------------||----------------------14-------------|
|----------------------------|---------------------------||-------------------------------------|
|-------------------------12-|---------------------------||-------------------------------------|
|
| E E S S E E Q. +q Q H H Q q
|----------------------------|---------------------------||-------------------------------------|
|----7----7----7--5----------|-(5)-----------------------||--0----------------------------------|
|----6----6----6--4----------|-(4)-----------------------||--0--------------------------4-------|
|----------------------------|---------------------------||--2--------------------------2-------|
|----------------------------|---------------------------||--2----------------------------------|
|----------------------------|---------------------------||--0-----------------3----------------|


|--3--| |-3-| |-3-| |-3-| |-3--| |-3-| |--3--|
Q S S S E E E E E E E E E E E E E E E E E E E
|-----------------------------|------------------------8-10------|
|-15--15h16p15-13-------------|------------------7-10------------|

Transcribed by Steve Royall & osmanros

Pagina 1 di 18Tablature for Bireli Lagrene & Sylvain Luc's MADE IN FRANCE

16/03/2007mhtml:file://F:\Musica\Tablature for Bireli Lagrene & Sylvain Luc's MADE IN FRA...

Page 2

|-----------------------------|----------------8-----------------|
|-----------------------------|-------7-10-8-9-------------------|
|-----------------------------|---6-9----------------------------|
|-----------------8p7-6-7-8-6-|-7--------------------------------|
|
| |-3-| |-3-| |-3--|
| Q q E E E E E E Q E E E Q E. S
|-----------------------------|----------------------------------|
|-----------------------------|----------------------------------|
|------5----------------------|----------------------------------|
|------5----------------------|------------0-1------4-------1----|
|-----------------3p2p1-2-3-1-|-2-----2--3-----------------------|
|--5--------------------------|----------------------------------|


|-3--| |-3-| |---3---| |----3----| |--3--| |--3--| |---3----| |--3--|
E E E E Q S S S E E E E E E E E E E E E E E E E
|-8h10p8-7---7------------------------15---11-|-14-12-11-12---------------------------12-|
|----------------12h13p==12-11---12-----------|-------------12---------------------------|
|---------------------------------------------|----------------12-11-------11---12-13----|
|---------------------------------------------|-----------------------14-----------------|
|---------------------------------------------|------------------------------------------|
|---------------------------------------------|------------------------------------------|
|
| |--3--| |--3--|
| q S E E E E S E Q E E E +E S S E E E
|---------------------------------------------|------------------------------------------|
|---------------------------------------------|------------------------------------------|
|---------------------------------------------|------------------------------------------|
|-0-------------------------------------------|----------------------------------------8-|
|----------3---2-------0----------------------|----------------------------------7--9----|
|------------------------------3---------2----|--0--------2--3--4-(4)----7h===8----------|


|---3----| |-3-| |-3-| |-3-| |-3--| |-3-| |-3-|
Q S S S E E E E E E E E E E E E E E E E E E E
|----------------------------------|------------------------------|
|-15--15h=16p==15-13---------------|------------------7-10-8-7----|
|----------------------------------|----------------8-------------|
|----------------------------------|-------7-10-8-9---------------|
|----------------------------------|---6-9------------------------|
|----------------------8p7-6-7-8-6-|-7----------------------------|
|
| |-3-| |-3-| |---3----|
| Q +S S S S E E E E E E Q Q Q Q Q
|----------------------------------|------------------------------|
|----------------------------------|------------------------------|
|----------------------------------|------------------------------|
|--7--(7)----6-----5-4-------------|---------------------1--------|
|----------------------3-2-1-2-3-1-|-2-----2----3---4-------------|
|----------------------------------|------------------------------|


|-3-| |--3--|
E E E E E E Q. E E E E Q E E E
|------------------------|----15-14-12---14------|
|---8--------------------|--------------------10-|
|-9------9---------------|-----------------------|
|-----9--------9------12-|-14--------------------|
|-----------10---7-------|-----------------------|
|------------------------|-----------------------|
|
| |-3-| |-3-|
| Q E +E Q Q. E H H
|------------------------|-----------------------|
|------------------------|-------------5---------|
|------------------------|--5----------5---------|
|-2----------------------|--5----------4---------|
|-----2-(2)--------------|-------------5---------|
|------------3---0-------|--5--------------------|


|--3---|
E S S Q Q Q E E E E +E Q Q
|----12h=14p12--10-----12---|-12-11h=12p11-(11)-9-----11--|
|-12------------------------|-----------------------------|
|---------------------------|-----------------------------|
|---------------------------|-----------------------------|

Pagina 2 di 18Tablature for Bireli Lagrene & Sylvain Luc's MADE IN FRANCE

16/03/2007mhtml:file://F:\Musica\Tablature for Bireli Lagrene & Sylvain Luc's MADE IN FRA...

Page 9

|-3-|
E E E E E E E E E E E Q. E S S S
|-------------------------|---------------------||
|-------------------------|---------------------||
|-------------------------|---------------------||
|-------------------------|-------2-------------||
|-9-7---------------------|-----2---------------||
|-----10--8---7-5--3--2---|-0-3---------0-7-7-7-||
|
| |-3--| |-3--|
| Q +Q E Q +Q E H H
|-------------------------|---------------------||
|-------------------------|---------------------||
|-------------------------|---------------------||
|-------------------------|---------------------||
|-----------5-6---(6)---7-|---------------------||
|-7---(7)-----------------|-0-------------------||


|-3-| |-3-| |-3-| |-3--| |-3-| |--3--| |--3--| |-3--|
E E E E E E E E E E E E E E E E E E E E E E E E
|--------------------------|---------------------------------|
|--------------------------|----------10-11-12-13-12-11-10-9-|
|--------------------------|-----8-11------------------------|
|---------------7-8-9-10-9-|-8-9-----------------------------|
|-----------6-9------------|---------------------------------|
|-7-8-7-6-7----------------|---------------------------------|
|
| Q Q Q Q Q Q Q Q
|--------------------------|---------------------------------|
|-4-----4-----4-----4------|-4------4--------4--------5------|
|-2-----2-----2-----2------|-2------2--------2--------3------|
|-4-----4-----4-----4------|-4------4--------4--------5------|
|-2-----2-----2-----2------|-2------2--------2--------3------|
|--------------------------|---------------------------------|


|-3-| |-3-| |-3-| |-3--|
E E E E E E E E E E E E
|----------------------------|
|-8-7-----7-8-10-8-7---------|
|-----9-8------------9-8-----|
|------------------------10--|
|----------------------------|
|----------------------------|
|
| Q Q Q Q
|----------------------------|
|-4-----4------7-----7-------|
|-2-----2------5-----5-------|
|-4-----4------7-----7-------|
|-2-----2------6-----6-------|
|----------------------------|


|-3--| |-3-| |3| |-3-|
E E E E E E E Q +E S S S
|----------------------7-8-7-|
|----------------------------|
|----------------------------|
|-9-7------------------------|
|-----10-9-7-6---------------|
|--------------8-7-(7)-------|
|
| Q Q Q Q
|----------------------------|
|-7------7-----5----5--------|
|-5------5-----3----3--------|
|-7------7-----5----5--------|
|-6------6-----3----3--------|
|----------------------------|


|-3-| |-3-| |-3-| |-3-| |-3-| |-3-| |-3-| |-3--|
E E E E E E E E E E E E E E E E E E E E E E E +E
|-6-7-8-6-7-8-6-7-8-6-7-8-|-6-7-8-6-7-8-6-7-8-6-7-(7)--|
|-------------------------|----------------------------|

Pagina 9 di 18Tablature for Bireli Lagrene & Sylvain Luc's MADE IN FRANCE

16/03/2007mhtml:file://F:\Musica\Tablature for Bireli Lagrene & Sylvain Luc's MADE IN FRA...

Page 10

|-------------------------|----------------------------|
|-------------------------|----------------------------|
|-------------------------|----------------------------|
|-------------------------|----------------------------|
|
| Q H Q Q Q Q Q
|-------------------------|----------------------------|
|-4-----4-----------4-----|-4-----4-----4-----4--------|
|-2-----2-----------2-----|-2-----2-----2-----2--------|
|-4-----4-----------4-----|-4-----4-----4-----4--------|
|-2-----2-----------2-----|-2-----2-----2-----2--------|
|-------------------------|----------------------------|


|-3--| |-3--| |-3--| |-3--|
E E +E E E +E E E +E E E +E
|-8-6-(6)-8-7-(7)-8-7-(7)-8-7-(7)-|
|---------------------------------|
|---------------------------------|
|---------------------------------|
|---------------------------------|
|---------------------------------|
|
| Q Q Q Q
|---------------------------------|
|-4-------4-------4-------4-------|
|-2-------2-------2-------2-------|
|-4-------4-------4-------4-------|
|-2-------2-------2-------2-------|
|---------------------------------|


Q=130
|-3--| |-3--| |-3--|
E E +E E E +E E E +E E E Q. E S E S E S S
|-8-5-(5)-7-3-(3)-5-2-(2)-3p==2---|-0--------12-14-15---11-14-12----|
|---------------------------------|------------------------------13-|
|---------------------------------|---------------------------------|
|---------------------------------|---------------------------------|
|---------------------------------|---------------------------------|
|---------------------------------|---------------------------------|
|
| |-3--| |--3--|
| Q Q Q E E E E E S S E E E E E E
|---------------------------------|---------------------------------|
|-4-------4-----------------------|---------------------------------|
|-2-------2-----------------------|---------------------------------|
|-4-------4-----------------------|---------------------------------|
|-2-------2-----------------------|-------------------7-------------|
|----------------------3--2-3---2-|-0--2p0-3--5--7----------5--7----|


|--3--|
+S S E E S S S S S S S S S S S
|--------------14p13p12p11----------------------|
|-(13)---------------------13-12-10-------------|
|------14-11------------------------12----------|
|--------------------------------------13-12-10-|
|-----------------------------------------------|
|-----------------------------------------------|
|
| E E E E E E E E
|-----------------------------------------------|
|-----------------------------------------------|
|-----------------------------------------------|
|------------4--2--------1----------------------|
|------------------------------3-----2-----0----|
|---8------2------------------------------------|


S S S S S S S S S S S S S S S S E Q S S S S S S S S S S
|----------------------------------14-15-16-17-|-18-19---14-17-15-------14-13-12-13-14--|
|-------------------10-------------------------|----------------------------------------|
|----------------11----11-12-14-16-------------|------------------11-12-----------------|
|-9---------9-10-------------------------------|----------------------------------------|
|---12-9-10------------------------------------|----------------------------------------|
|----------------------------------------------|----------------------------------------|
|

Pagina 10 di 18Tablature for Bireli Lagrene & Sylvain Luc's MADE IN FRANCE

16/03/2007mhtml:file://F:\Musica\Tablature for Bireli Lagrene & Sylvain Luc's MADE IN FRA...

Page 17

E E E E E E E E E E E E Q S S S E E E E E E E
|-14--12-11---12----------------------12-|-----------------------------|
|----------------12----------------------|-15--15h16p15-13-------------|
|-------------------12-11----11-12-13----|-----------------------------|
|-------------------------14-------------|-----------------------------|
|----------------------------------------|-----------------------------|
|----------------------------------------|-----------------8p7-6-7-8-6-|
|
| |--3--| |--3--| |--3--| |-3-|
| E. S E E E E E E E E E Q E E Q E E E
|----------------------------------------|-----------------------------|
|----------------------------------------|-----------------------------|
|----------------------------------------|-----------------------------|
|-----------2p=1--0--2-----2-----2-----2-|---------------------------4-|
|-----------------------4-----3-----2----|--0---2--------3---------3---|
|----------------------------------------|-----------------2-----2-----|


|--3---| |---3----| |---3---| |--3--|
E E E E E E E E E E E E q E H +E +W
|-----------------------------------------------|------^14----(14)-|-(14)----*|
|----------------------------------7---10-8---7-|----x-^12----(12)-|-(12)----*|
|------------------------------8----------------|-9--x-^12----(12)-|-(12)----*|
|-------------7---10---8---9--------------------|----x-^12----(12)-|-(12)----*|
|-----6---9-------------------------------------|----x-------------|---------*|
|--7--------------------------------------------|------------------|---------*|
|
| |---3---| |---3---| |-3-|
| +E E E E E E E E Q E Q E H +E +W
|-----------------------------------------------|------------------|---------*|
|-----------------------------------------------|----x-------------|---------*|
|-----------------------------------------------|----x-------------|---------*|
|-(4)---2---1-----------------------------------|----x-------------|---------*|
|---------------3----2---0----------------------|----x-------------|---------*|
|----------------------------3---2---0------2---|-3------0-----(0)-|--(0)----*|



Duration Legend
---------------
W - whole; H - half; Q - quarter; E - 8th; S - 16th; T - 32nd; X - 64th; a - acciaccatura
+ - note tied to previous; . - note dotted; .. - note double dotted
Uncapitalized letters represent notes that are staccato (1/2 duration)
Irregular groupings are notated above the duration line
Duration letters will always appear directly above the note/fret number it represents the
duration for. Duration letters with no fret number below them represent rests. Multi-
bar rests are notated in the form Wxn, where n is the number of bars to rest for. Low
melody durations appear below the staff

Tablature Legend
----------------
h - hammer-on
p - pull-off
b - bend
pb - pre-bend
r - bend release (if no number after the r, then release immediately)
/\ - slide into or out of (from/to "nowhere")
s - legato slide
S - shift slide
<n> - natural harmonic
[n] - artificial harmonic
n(n) - tapped harmonic
~ - vibrato
tr - trill
T - tap
TP - trem. picking
PM - palm muting
\n/ - tremolo bar dip; n = amount to dip
\n - tremolo bar down
n/ - tremolo bar up
/n\ - tremolo bar inverted dip
= - hold bend; also acts as connecting device for hammers/pulls
<> - volume swell (louder/softer)
x - on rhythm slash represents muted slash
o - on rhythm slash represents single note slash

Pagina 17 di 18Tablature for Bireli Lagrene & Sylvain Luc's MADE IN FRANCE

16/03/2007mhtml:file://F:\Musica\Tablature for Bireli Lagrene & Sylvain Luc's MADE IN FRA...

Page 18

Misc Legend
-----------
| - bar
|| - double bar
||o - repeat start
o|| - repeat end
*| - double bar (ending)
: - bar (freetime)
$ - Segno
& - Coda
Tempo markers - <E/E./Q/Q./H/H.> = BPM(8/16=s8/s16), where s8 = swing 8ths, s16 = swing 16ths


** Generated using Power Tab Editor by Brad Larsen: The Official Power Tab Web Site

Pagina 18 di 18Tablature for Bireli Lagrene & Sylvain Luc's MADE IN FRANCE

16/03/2007mhtml:file://F:\Musica\Tablature for Bireli Lagrene & Sylvain Luc's MADE IN FRA...

Similer Documents